Banjo-Chords
C-Tuning ( C-G-B/H*-D)

( C, C7, Cm, Cm7, C+, Caug, C-, Cdim, C°, C5, Csus4, Csus2, C6, Cm6, Cmaj7, Cj7, C9 )

 

C
D| |-----|-(2)-|-----|-----|-----|
B| |-(1)-|-----|-----|-----|-----|
G|o|-----|-----|-----|-----|-----|
C|o|-----|-----|-----|-----|-----|
     1           3           5 

C
D| |-----|-----|-(4)-|-----|-----|
B| |-----|-----|-(3)-|-----|-----|
G| |-----|-----|-(2)-|-----|-----|
C| |-----|-----|-----|-(1)-|-----|
     1           3           5 

C7
D| |-----|-----|-----|-(3)-|-----|
B| |-----|-----|-----|-(2)-|-----|
G| |-----|-----|-(1)-|-----|-----|
C|o|-----|-----|-----|-----|-----|
     1           3           5 

C7
D| |-----|-----|-(4)-|-----|-----|
B| |-(1)-|-----|-----|-----|-----|
G| |-----|-(2)-|-----|-----|-----|
C| |-----|-----|-(3)-|-----|-----|
     8           10          12 

Cm
D| |-(1)-|-----|-----|-----|-----|
B| |-(1)-|-----|-----|-----|-----|
G|o|-----|-----|-----|-----|-----|
C|o|-----|-----|-----|-----|-----|
     1           3           5 

Cm
D| |-----|-----|-----|-----|-(4)-|
B| |-----|-----|-----|-(2)-|-----|
G| |-----|-----|-----|-----|-(3)-|
C| |-----|-----|-(1)-|-----|-----|
     1           3           5 

Cm7
D| |-----|-----|-----|-----|-(3)-|
B| |-----|-----|-----|-(2)-|-----|
G| |-----|-----|-(1)-|-----|-----|
C|o|-----|-----|-----|-----|-----|
     1           3           5 

Cm7
D| |-----|-(4)-|-----|-----|-----|
B| |-(1)-|-----|-----|-----|-----|
G| |-(1)-|-----|-----|-----|-----|
C| |-----|-(3)-|-----|-----|-----|
     8          10          12 

C+ / Caug
D| |-----|-(2)-|-----|-----|-----|
B| |-(1)-|-----|-----|-----|-----|
G| |-(1)-|-----|-----|-----|-----|
C|o|-----|-----|-----|-----|-----|
     1           3           5 

C+ / Caug
D| |-----|-----|-(4)-|-----|-----|
B| |-----|-(3)-|-----|-----|-----|
G| |-----|-(2)-|-----|-----|-----|
C| |-(1)-|-----|-----|-----|-----|
     4           6           8 

C- / C° / Cdim
D| |-----|-----|-(1)-|-----|-----|
B| |-----|-----|-(1)-|-----|-----|
G| |-----|-----|-----|-(2)-|-----|
C|o|-----|-----|-----|-----|-----|
     1           3           5 

C- / C° / Cdim
D| |-----|-----|-----|-(3)-|-----|
B| |-----|-----|-----|-(2)-|-----|
G| |-----|-----|-----|-----|-(4)-|
C| |-----|-----|-(1)-|-----|-----|
     1           3           5 

C5
D|x|-----|-----|-----|-----|-----|
B| |-(1)-|-----|-----|-----|-----|
G|o|-----|-----|-----|-----|-----|
C|o|-----|-----|-----|-----|-----|
     1           3           5 

C5
D| |-(1)-|-----|-----|-----|-----|
B| |-(1)-|-----|-----|-(4)-|-----|
G| |-(1)-|-----|-----|-----|-----|
C| |-----|-----|-(3)-|-----|-----|
     5           7           9 

Csus4
D| |-----|-----|-(3)-|-----|-----|
B| |-(1)-|-----|-----|-----|-----|
G|o|-----|-----|-----|-----|-----|
C|o|-----|-----|-----|-----|-----|
     1           3           5 

Csus4
D| |-(1)-|-----|-----|-----|-----|
B| |-----|-(2)-|-----|-----|-----|
G| |-(1)-|-----|-----|-----|-----|
C| |-(1)-|-----|-----|-----|-----|
     5           7           8 

Csus2
D|o|-----|-----|-----|-----|-----|
B| |-(1)-|-----|-----|-----|-----|
G|o|-----|-----|-----|-----|-----|
C|o|-----|-----|-----|-----|-----|
     1           3           5 

Csus2
D| |-----|-----|-----|-(4)-|-----|
B| |-----|-(2)-|-----|-----|-----|
G| |-(1)-|-----|-----|-----|-----|
C| |-(1)-|-----|-----|-----|-----|
     7           9           11 

C6
D| |-----|-----|-----|-----|-(4)-|
B| |-----|-----|-----|-----|-(4)-|
G| |-(1)-|-----|-----|-----|-----|
C|o|-----|-----|-----|-----|-----|
     1           3           5 

C6
D| |-----|-----|-----|-(4)-|-----|
B| |-----|-(2)-|-----|-----|-----|
G| |-----|-(2)-|-----|-----|-----|
C| |-(1)-|-----|-----|-----|-----|
     4           6           8 

Cm6
D| |-----|-----|-----|-----|-(4)-|
B| |-----|-----|-----|-(3)-|-----|
G| |-----|-(1)-|-----|-----|-----|
C|o|-----|-----|-----|-----|-----|
     1           3           5 

Cm6
D| |-----|-----|-----|-(4)-|-----|
B| |-----|-----|-----|-(4)-|-----|
G| |-----|-(2)-|-----|-----|-----|
C| |-(1)-|-----|-----|-----|-----|
     7           9           11 

Cmaj7 / Cj7
D| |-----|-(2)-|-----|-----|-----|
B|o|-----|-----|-----|-----|-----|
G|o|-----|-----|-----|-----|-----|
C|o|-----|-----|-----|-----|-----|
     1           3           5 

Cmaj7 / Cj7
D| |-----|-----|-----|-----|-(4)-|
B| |-(1)-|-----|-----|-----|-----|
G| |-(1)-|-----|-----|-----|-----|
C| |-----|-----|-(2)-|-----|-----|
     5           7           9 

C9
D|o|-----|-----|-----|-----|-----|
B| |-----|-----|-----|-----|-(3)-|
G| |-----|-----|-(1)-|-----|-----|
C|o|-----|-----|-----|-----|-----|
     1           3           5 

C9
D| |-----|-(3)-|-----|-----|-----|
B| |-(1)-|-----|-----|-----|-----|
G| |-----|-----|-(4)-|-----|-----|
C| |-----|-(2)-|-----|-----|-----|
     1           3           5