Db Banjo-Chords
C-Tuning ( C-G-B/H*-D)

( Db, Db7, Dbm, Dbm7, Db+, Dbaug, Db-, Dbdim, Db°, Db5, Dbsus4, Dbsus2, Db6, Dbm6, Dbmaj7, Dbj7, Db9 )

 

Db
D| |-----|-----|-(3)-|-----|-----|
B| |-----|-(2)-|-----|-----|-----|
G| |-(1)-|-----|-----|-----|-----|
C| |-(1)-|-----|-----|-----|-----|
    1           3           5 

Dbm
D| |-----|-----|-(4)-|-----|-----|
B| |-----|-----|-(3)-|-----|-----|
G| |-----|-----|-(2)-|-----|-----|
C| |-(1)-|-----|-----|-----|-----|
    5           7           9 

Db+ / Dbaug
D| |-----|-----|-----|-----|-----|
B| |-----|-----|-----|-----|-----|
G| |-----|-----|-----|-----|-----|
C| |-----|-----|-----|-----|-----|
     1           3           5 

-
D| |-----|-----|-----|-----|-----|
B| |-----|-----|-----|-----|-----|
G| |-----|-----|-----|-----|-----|
C| |-----|-----|-----|-----|-----|
     1           3           5 

-
D| |-----|-----|-----|-----|-----|
B| |-----|-----|-----|-----|-----|
G| |-----|-----|-----|-----|-----|
C| |-----|-----|-----|-----|-----|
     1           3           5 

-
D| |-----|-----|-----|-----|-----|
B| |-----|-----|-----|-----|-----|
G| |-----|-----|-----|-----|-----|
C| |-----|-----|-----|-----|-----|
     1           3           5 

-
D| |-----|-----|-----|-----|-----|
B| |-----|-----|-----|-----|-----|
G| |-----|-----|-----|-----|-----|
C| |-----|-----|-----|-----|-----|
     1           3           5 

-
D| |-----|-----|-----|-----|-----|
B| |-----|-----|-----|-----|-----|
G| |-----|-----|-----|-----|-----|
C| |-----|-----|-----|-----|-----|
     1           3           5 

-
D| |-----|-----|-----|-----|-----|
B| |-----|-----|-----|-----|-----|
G| |-----|-----|-----|-----|-----|
C| |-----|-----|-----|-----|-----|
     1           3           5 

-
D| |-----|-----|-----|-----|-----|
B| |-----|-----|-----|-----|-----|
G| |-----|-----|-----|-----|-----|
C| |-----|-----|-----|-----|-----|
     1           3           5 

-
D| |-----|-----|-----|-----|-----|
B| |-----|-----|-----|-----|-----|
G| |-----|-----|-----|-----|-----|
C| |-----|-----|-----|-----|-----|
     1           3           5 

-
D| |-----|-----|-----|-----|-----|
B| |-----|-----|-----|-----|-----|
G| |-----|-----|-----|-----|-----|
C| |-----|-----|-----|-----|-----|
     1           3           5 

-
D| |-----|-----|-----|-----|-----|
B| |-----|-----|-----|-----|-----|
G| |-----|-----|-----|-----|-----|
C| |-----|-----|-----|-----|-----|
     1           3           5 

-
D| |-----|-----|-----|-----|-----|
B| |-----|-----|-----|-----|-----|
G| |-----|-----|-----|-----|-----|
C| |-----|-----|-----|-----|-----|
     1           3           5 

-
D| |-----|-----|-----|-----|-----|
B| |-----|-----|-----|-----|-----|
G| |-----|-----|-----|-----|-----|
C| |-----|-----|-----|-----|-----|
     1           3           5 

-
D| |-----|-----|-----|-----|-----|
B| |-----|-----|-----|-----|-----|
G| |-----|-----|-----|-----|-----|
C| |-----|-----|-----|-----|-----|
     1           3           5 

-
D| |-----|-----|-----|-----|-----|
B| |-----|-----|-----|-----|-----|
G| |-----|-----|-----|-----|-----|
C| |-----|-----|-----|-----|-----|
     1           3           5 

-
D| |-----|-----|-----|-----|-----|
B| |-----|-----|-----|-----|-----|
G| |-----|-----|-----|-----|-----|
C| |-----|-----|-----|-----|-----|
     1           3           5 

-
D| |-----|-----|-----|-----|-----|
B| |-----|-----|-----|-----|-----|
G| |-----|-----|-----|-----|-----|
C| |-----|-----|-----|-----|-----|
     1           3           5 

-
D| |-----|-----|-----|-----|-----|
B| |-----|-----|-----|-----|-----|
G| |-----|-----|-----|-----|-----|
C| |-----|-----|-----|-----|-----|
     1           3           5 

-
D| |-----|-----|-----|-----|-----|
B| |-----|-----|-----|-----|-----|
G| |-----|-----|-----|-----|-----|
C| |-----|-----|-----|-----|-----|
     1           3           5 

-
D| |-----|-----|-----|-----|-----|
B| |-----|-----|-----|-----|-----|
G| |-----|-----|-----|-----|-----|
C| |-----|-----|-----|-----|-----|
     1           3           5 

-
D| |-----|-----|-----|-----|-----|
B| |-----|-----|-----|-----|-----|
G| |-----|-----|-----|-----|-----|
C| |-----|-----|-----|-----|-----|
     1           3           5 

-
D| |-----|-----|-----|-----|-----|
B| |-----|-----|-----|-----|-----|
G| |-----|-----|-----|-----|-----|
C| |-----|-----|-----|-----|-----|
     1           3           5 

-
D| |-----|-----|-----|-----|-----|
B| |-----|-----|-----|-----|-----|
G| |-----|-----|-----|-----|-----|
C| |-----|-----|-----|-----|-----|
     1           3           5 

-
D| |-----|-----|-----|-----|-----|
B| |-----|-----|-----|-----|-----|
G| |-----|-----|-----|-----|-----|
C| |-----|-----|-----|-----|-----|
     1           3           5