E Banjo-Chords
C-Tuning ( C-G-B/H*-D)

( E, E7, Em, Em7, E+, Eaug, E-, Edim, E°, E5, Esus4, Esus2, E6, Em6, Emaj7, Ej7, E9 )

 

E
D| |-----|-(2)-|-----|-----|-----|
B|o|-----|-----|-----|-----|-----|
G| |-(1)-|-----|-----|-----|-----|
C| |-----|-----|-----|-(4)-|-----|
    1           3           5 

E
D| |-----|-----|-(3)-|-----|-----|
B| |-----|-(2)-|-----|-----|-----|
G| |-(1)-|-----|-----|-----|-----|
C| |-(1)-|-----|-----|-----|-----|
    4           6           8 

Em
D| |-----|-(1)-|-----|-----|-----|
B|o|-----|-----|-----|-----|-----|
G|o|-----|-----|-----|-----|-----|
C| |-----|-----|-----|-(3)-|-----|
    1           3           5 

E+ / Eaug
D| |-----|-(2)-|-----|-----|-----|
B| |-(1)-|-----|-----|-----|-----|
G| |-(1)-|-----|-----|-----|-----|
C| |-----|-----|-----|-(4)-|-----|
    1           3           5 

E° / Edim / E-
D| |-----|-----|-----|-----|-(4)-|
B| |-----|-----|-----|-----|-(3)-|
G| |-----|-----|-(1)-|-----|-----|
C| |-----|-----|-----|-(2)-|-----|
    1           3           5 

E5
D| |-----|-(1)-|-----|-----|-----|
B|o|-----|-----|-----|-----|-----|
G| |-----|-----|-----|-(4)-|-----|
C| |-----|-----|-----|-(3)-|-----|
    1           3           5 

Esus4
D| |-----|-(2)-|-----|-----|-----|
B|o|-----|-----|-----|-----|-----|
G| |-----|-(1)-|-----|-----|-----|
C| |-----|-----|-----|-(4)-|-----|
    1           3           5 

Esus2
D| |-----|-----|-----|-(4)-|-----|
B|o|-----|-----|-----|-----|-----|
G| |-----|-----|-----|-(3)-|-----|
C| |-----|-----|-----|-(2)-|-----|
    1           3           5 

E6
D| |-----|-(3)-|-----|-----|-----|
B|o|-----|-----|-----|-----|-----|
G| |-(2)-|-----|-----|-----|-----|
C| |-(1)-|-----|-----|-----|-----|
    1           3           5 

Em6
D| |-----|-(2)-|-----|-----|-----|
B|o|-----|-----|-----|-----|-----|
G|o|-----|-----|-----|-----|-----|
C| |-(1)-|-----|-----|-----|-----|
    1           3           5 

Emaj7 / Ej7
D| |-----|-(2)-|-----|-----|-----|
B|o|-----|-----|-----|-----|-----|
G| |-(1)-|-----|-----|-----|-----|
C| |-----|-----|-(3)-|-----|-----|
    1           3           5 

Em7
D|o|-----|-----|-----|-----|-----|
B|o|-----|-----|-----|-----|-----|
G|o|-----|-----|-----|-----|-----|
C| |-----|-----|-----|-(3)-|-----|
    1           3           5 

E7
D|o|-----|-----|-----|-----|-----|
B|o|-----|-----|-----|-----|-----|
G| |-(1)-|-----|-----|-----|-----|
C| |-----|-----|-----|-(4)-|-----|
    1           3           5 

E9
D| |-----|-----|-----|-(4)-|-----|
B| |-----|-----|-(2)-|-----|-----|
G| |-(1)-|-----|-----|-----|-----|
C| |-----|-----|-----|-(3)-|-----|
    1           3           5