G Banjo-Chords
C-Tuning ( C-G-B/H*-D)

( G, G7, Gm, Gm7, G+, Gaug, G-, Gdim, G°, G5, Gsus4, Gsus2, G6, Gm6, Gmaj7, Gj7, G9 )

 

G
D|o|-----|-----|-----|-----|-----|
B|o|-----|-----|-----|-----|-----|
G|o|-----|-----|-----|-----|-----|
C| |-----|-(1)-|-----|-----|-----|
    1           3           5 

G
D| |-----|-----|-(3)-|-----|-----|
B| |-----|-(2)-|-----|-----|-----|
G| |-(1)-|-----|-----|-----|-----|
C| |-(1)-|-----|-----|-----|-----|
    7           9          10 

Gm
D| |-----|-----|-----|-----|-(4)-|
B| |-----|-----|-(2)-|-----|-----|
G| |-----|-----|-(2)-|-----|-----|
C| |-----|-(1)-|-----|-----|-----|
    1           3           5 

G+ / Gaug
D| |-(1)-|-----|-----|-----|-----|
B|o|-----|-----|-----|-----|-----|
G|o|-----|-----|-----|-----|-----|
C| |-----|-----|-(3)-|-----|-----|
    1           3           5 

G° / Gdim / G-
D| |-----|-----|-(4)-|-----|-----|
B| |-----|-----|-(3)-|-----|-----|
G| |-(1)-|-----|-----|-----|-----|
C| |-----|-(2)-|-----|-----|-----|
    6           8           9 

G5
D|o|-----|-----|-----|-----|-----|
B| |-----|-----|-(3)-|-----|-----|
G|o|-----|-----|-----|-----|-----|
C| |-----|-(1)-|-----|-----|-----|
    1           3           5 

Gsus4
D|o|-----|-----|-----|-----|-----|
B| |-(1)-|-----|-----|-----|-----|
G|o|-----|-----|-----|-----|-----|
C| |-----|-(2)-|-----|-----|-----|
    1           3           5 

Gsus2
D| |-----|-----|-----|-----|-(4)-|
B| |-----|-----|-(2)-|-----|-----|
G| |-----|-(1)-|-----|-----|-----|
C| |-----|-(1)-|-----|-----|-----|
    1           3           5 

G6
D| |-----|-(3)-|-----|-----|-----|
B|o|-----|-----|-----|-----|-----|
G|o|-----|-----|-----|-----|-----|
C| |-----|-(2)-|-----|-----|-----|
    1           3           5 

Gm6
D| |-----|-----|-----|-----|-(4)-|
B| |-----|-----|-----|-----|-(4)-|
G| |-----|-----|-(2)-|-----|-----|
C| |-----|-(1)-|-----|-----|-----|
    1           3           5 

Gmaj7 / Gj7
D| |-----|-----|-----|-(4)-|-----|
B|o|-----|-----|-----|-----|-----|
G|o|-----|-----|-----|-----|-----|
C| |-----|-(1)-|-----|-----|-----|
    1           3           5 

Gm7
D| |-----|-----|-----|-----|-(4)-|
B| |-----|-----|-(1)-|-----|-----|
G| |-----|-----|-(1)-|-----|-----|
C| |-----|-----|-----|-----|-(3)-|
    1           3           5 

G7
D| |-----|-----|-(3)-|-----|-----|
B|o|-----|-----|-----|-----|-----|
G|o|-----|-----|-----|-----|-----|
C| |-----|-(1)-|-----|-----|-----|
    1           3           5 

G9
D| |-----|-----|-----|-----|-(4)-|
B|o|-----|-----|-----|-----|-----|
G| |-----|-(1)-|-----|-----|-----|
C| |-----|-----|-----|-----|-(3)-|
    1           3           5