A Banjo-Chords
C-Tuning ( C-G-B/H*-D)

( A, A7, Am, Am7, A+, Aaug, A-, Adim, A°, A5, Asus4, Asus2, A6, Am6, Amaj7, Aj7, A9 )

 

A
D| |-----|-(4)-|-----|-----|-----|
B| |-----|-(3)-|-----|-----|-----|
G| |-----|-(2)-|-----|-----|-----|
C| |-(1)-|-----|-----|-----|-----|
     1           3           5 

A
D| |-----|-----|-(3)-|-----|-----|
B| |-----|-(2)-|-----|-----|-----|
G| |-(1)-|-----|-----|-----|-----|
C| |-(1)-|-----|-----|-----|-----|
    9          11          13 

Am
D| |-----|-(3)-|-----|-----|-----|
B| |-(1)-|-----|-----|-----|-----|
G| |-----|-(2)-|-----|-----|-----|
C|o|-----|-----|-----|-----|-----|
     1           3           5 

A+ / Aaug
D| |-----|-----|-(4)-|-----|-----|
B| |-----|-(3)-|-----|-----|-----|
G| |-----|-(2)-|-----|-----|-----|
C| |-(1)-|-----|-----|-----|-----|
     1           3           5 

A° / Adim / A-
D| |-(1)-|-----|-----|-----|-----|
B| |-(1)-|-----|-----|-----|-----|
G| |-----|-(1)-|-----|-----|-----|
C|o|-----|-----|-----|-----|-----|
     1           3           5 

A5
D| |-----|-(1)-|-----|-----|-----|
B| |-----|-----|-----|-----|-(4)-|
G| |-----|-(1)-|-----|-----|-----|
C| |-----|-----|-----|-(3)-|-----|
     1           3           5 

Asus4
D|o|-----|-----|-----|-----|-----|
B| |-----|-----|-(2)-|-----|-----|
G| |-----|-(1)-|-----|-----|-----|
C| |-----|-----|-----|-(3)-|-----|
     1           3           5 

Asus2
D| |-----|-(2)-|-----|-----|-----|
B|o|-----|-----|-----|-----|-----|
G| |-----|-(1)-|-----|-----|-----|
C| |-----|-----|-----|-(4)-|-----|
     1           3           5 

A6
D| |-----|-----|-----|-(4)-|-----|
B| |-----|-(2)-|-----|-----|-----|
G| |-----|-(2)-|-----|-----|-----|
C| |-(1)-|-----|-----|-----|-----|
     1           3           5 

Am6
D| |-----|-----|-----|-(3)-|-----|
B| |-----|-----|-----|-----|-(4)-|
G| |-----|-(1)-|-----|-----|-----|
C|o|-----|-----|-----|-----|-----|
     1           3           5 

Amaj7 / Aj7
D| |-----|-----|-(3)-|-----|-----|
B| |-(1)-|-----|-----|-----|-----|
G| |-----|-(2)-|-----|-----|-----|
C| |-----|-----|-----|-(4)-|-----|
    5           7           9 

Am7
D| |-----|-----|-----|-----|-(4)-|
B| |-----|-----|-----|-----|-(4)-|
G| |-----|-(1)-|-----|-----|-----|
C|o|-----|-----|-----|-----|-----|
     1           3           5 

A7
D| |-----|-----|-----|-----|-(4)-|
B| |-----|-(1)-|-----|-----|-----|
G| |-----|-(1)-|-----|-----|-----|
C| |-----|-----|-----|-(3)-|-----|
     1           3           5 

A9
D| |-----|-----|-----|-(4)-|-----|
B| |-----|-----|-(2)-|-----|-----|
G| |-(1)-|-----|-----|-----|-----|
C| |-----|-----|-----|-(3)-|-----|
    6           8           10