D Banjo-Chords
C-Tuning ( C-G-B/H*-D)

( D, D7, Dm, Dm7, D+, Daug, D-, Ddim, D°, D5, Dsus4, Dsus2, D6, Dm6, Dmaj7, Dj7, D9 )

 

D
D| |-----|-----|-----|-(3)-|-----|
B| |-----|-----|-(2)-|-----|-----|
G| |-----|-(1)-|-----|-----|-----|
C| |-----|-(1)-|-----|-----|-----|
      1           3           5 

D
D|o|-----|-----|-----|-----|-----|
B| |-(2)-|-----|-----|-----|-----|
G| |-(1)-|-----|-----|-----|-----|
C| |-----|-----|-(4)-|-----|-----|
     7     8     9     10    11 

Dm
D| |-----|-----|-(3)-|-----|-----|
B| |-----|-----|-(2)-|-----|-----|
G| |-----|-(1)-|-----|-----|-----|
C| |-----|-(1)-|-----|-----|-----|
    1           3           5 

D+ / Daug
D| |-----|-----|-----|-(4)-|-----|
B| |-----|-----|-(3)-|-----|-----|
G| |-----|-----|-(2)-|-----|-----|
C| |-----|-(1)-|-----|-----|-----|
    1           3           5 

D° / Ddim / D-
D| |-----|-----|-(4)-|-----|-----|
B| |-----|-----|-(3)-|-----|-----|
G| |-(1)-|-----|-----|-----|-----|
C| |-----|-(2)-|-----|-----|-----|
    1           3           5 

D5
D|o|-----|-----|-----|-----|-----|
B| |-----|-----|-(3)-|-----|-----|
G| |-----|-(2)-|-----|-----|-----|
C| |-----|-(1)-|-----|-----|-----|
    1           3           5 

Dsus4
D| |-----|-----|-----|-----|-(4)-|
B| |-----|-----|-(2)-|-----|-----|
G| |-----|-(1)-|-----|-----|-----|
C| |-----|-(1)-|-----|-----|-----|
    1           3           5 

Dsus2
D| |-----|-(1)-|-----|-----|-----|
B| |-----|-----|-(2)-|-----|-----|
G| |-----|-(1)-|-----|-----|-----|
C| |-----|-(1)-|-----|-----|-----|
    1           3           5 

D6
D| |-----|-----|-----|-(4)-|-----|
B| |-----|-----|-(2)-|-----|-----|
G| |-----|-----|-----|-(3)-|-----|
C| |-----|-(1)-|-----|-----|-----|
    1           3           5 

Dm6
D| |-----|-----|-(3)-|-----|-----|
B| |-----|-----|-(2)-|-----|-----|
G| |-----|-----|-----|-(4)-|-----|
C| |-----|-(1)-|-----|-----|-----|
    1           3           5 

Dmaj7 / Dj7
D| |-----|-----|-----|-(3)-|-----|
B| |-----|-(1)-|-----|-----|-----|
G| |-----|-(1)-|-----|-----|-----|
C| |-----|-(1)-|-----|-----|-----|
    1           3           5 

Dm7
D| |-----|-----|-(4)-|-----|-----|
B| |-(1)-|-----|-----|-----|-----|
G| |-----|-(3)-|-----|-----|-----|
C| |-----|-(2)-|-----|-----|-----|
    1           3           5 

D7
D|o|-----|-----|-----|-----|-----|
B| |-----|-----|-(2)-|-----|-----|
G| |-(1)-|-----|-----|-----|-----|
C| |-----|-----|-----|-----|-(4)-|
    5           7           9 

D9
D| |-----|-----|-----|-(2)-|-----|
B| |-----|-----|-----|-----|-(4)-|
G| |-----|-----|-----|-----|-(3)-|
C| |-----|-(1)-|-----|-----|-----|
    1           3           5