F Banjo-Chords
C-Tuning ( C-G-B/H*-D)

( F, F7, Fm, Fm7, F+, Faug, F-, Fdim, F°, F5, Fsus4, Fsus2, F6, Fm6, Fmaj7, Fj7, F9 )

 

F
D| |-----|-----|-(3)-|-----|-----|
B| |-(1)-|-----|-----|-----|-----|
G| |-----|-(2)-|-----|-----|-----|
C|o|-----|-----|-----|-----|-----|
    1           3           5 

F
D| |-----|-----|-(3)-|-----|-----|
B| |-----|-(2)-|-----|-----|-----|
G| |-(1)-|-----|-----|-----|-----|
C| |-(1)-|-----|-----|-----|-----|
    5           7           9 

Fm
D| |-----|-----|-(3)-|-----|-----|
B| |-(1)-|-----|-----|-----|-----|
G| |-(1)-|-----|-----|-----|-----|
C|o|-----|-----|-----|-----|-----|
    1           3           5 

F+ / Faug
D| |-----|-----|-(4)-|-----|-----|
B| |-----|-(3)-|-----|-----|-----|
G| |-----|-(2)-|-----|-----|-----|
C| |-(1)-|-----|-----|-----|-----|
    1           3           5 

F° / Fdim / F-
D| |-----|-----|-(4)-|-----|-----|
B| |-----|-----|-(3)-|-----|-----|
G| |-(1)-|-----|-----|-----|-----|
C| |-----|-(2)-|-----|-----|-----|
    4           6           8 

F5
D|x|-----|-----|-----|-----|-----|
B| |-----|-(2)-|-----|-----|-----|
G| |-(1)-|-----|-----|-----|-----|
C| |-(1)-|-----|-----|-----|-----|
    5           7           9 

Fsus4
D| |-----|-----|-(4)-|-----|-----|
B| |-(1)-|-----|-----|-----|-----|
G| |-----|-----|-(3)-|-----|-----|
C|o|-----|-----|-----|-----|-----|
    1           3           5 

Fsus2
D| |-----|-----|-(3)-|-----|-----|
B| |-(1)-|-----|-----|-----|-----|
G|o|-----|-----|-----|-----|-----|
C|o|-----|-----|-----|-----|-----|
    1           3           5 

F6
D| |-----|-----|-(3)-|-----|-----|
B| |-----|-----|-(2)-|-----|-----|
G| |-----|-(1)-|-----|-----|-----|
C|o|-----|-----|-----|-----|-----|
     1           3           5 

Fm6
D| |-----|-----|-(4)-|-----|-----|
B| |-----|-----|-(3)-|-----|-----|
G| |-(1)-|-----|-----|-----|-----|
C|o|-----|-----|-----|-----|-----|
     1           3           5 

Fmaj7 / Fj7
D| |-----|-----|-(2)-|-----|-----|
B| |-----|-----|-----|-----|-(4)-|
G| |-----|-(1)-|-----|-----|-----|
C|o|-----|-----|-----|-----|-----|
     1           3           5 

Fm7
D| |-----|-----|-(3)-|-----|-----|
B| |-----|-----|-----|-(4)-|-----|
G| |-(1)-|-----|-----|-----|-----|
C|o|-----|-----|-----|-----|-----|
     1           3           5 

F7
D| |-----|-----|-(2)-|-----|-----|
B| |-----|-----|-----|-(3)-|-----|
G| |-----|-(1)-|-----|-----|-----|
C|o|-----|-----|-----|-----|-----|
     1           3           5 

F9
D| |-----|-----|-----|-----|-(4)-|
B| |-----|-----|-----|-(2)-|-----|
G| |-----|-(1)-|-----|-----|-----|
C| |-----|-----|-----|-----|-(3)-|
     1           3           5